¿Quién te tiene agregado en tu fotolog?

Nombre del usuario fotolog.com/ReferentesReferentesAmigosAmigos
Anterior
Siguiente
Cargando...



tuning__losandes
eso vayan!
va a tar bueno xD!
ya no subo ni jotos!
pero bueno saludos a todos!

tuning__losandes
ahaha sorry por el atraso de jotos!! ando apurado!!!!! aka un civic!!! en la filan!!
saludos!

tuning__losandes
wolas!! uuu aqui subiendo foto nuevamente!! este auto o jeep me dejo loco el huyndai tucson la raja el audio... por fuera estaba standart mas ecima petrolero... piola pero por dentro otra cosa pantallas de dvd 4 por lo que yo vi 2 en los asientos 1 atras y otra adelante ... un psp 2 los cabros chicos arriba del auto taban facinaos y was xD! taba entero filete el auto al igual que los otros!!... tengo caleta de fotos!... asi ke pidan nomas!... este auto saco 138.1 si no me equivoco = no fue tanto pero creo q la cancion que puso no tenia tanto bajo como las otras ... pero = sonaba rico y yo creo q tenia pa haber sacao mas!... bueno posteen en buena porq los en mala (los envidiosos) se borran nomas!.... ya nos vemos!!

PD: aportes a negro_kako@hotmail.com si quieren agregan a msn!

-----------------------6------------------
----------------5-------/-----------------
-----------------------/-----7------------
------------4---------/-------------------
---------------------/----------8---------
---------3----------O--------------------
---------------------------------9--------
---------2--------------------------------
--------------------------------10-------
----------1-------------------------------
------------------------------------------
-------------------RPM-------------------

-----------------------120---------------------
---------------100-------------//140-----------
------------------------------//---------------
-----------80----------------//----160---------
----------------------------//-----------------
---------60----------------//--------180-------
--------------------------//------------------
---------40--------------//-----------200-----
------------------------0/--------------------
----------20------------------------220-------
----------------------------------------------
------------------------k/h-------------------

Los andes tuning!!!

adios!!


NegRo.KaKo.MaRCo

tuning__losandes
aca el audio del mauro (del chevrolet cavalier color verde) sonaba bonito ... bueno no vi que lugares sacaron o que autos gano porq taba tan entusiasmado sacando fotos q no me fije xD!... el que pueda me puede anotar las posiciones para ver si tengo las fotos y el audio del auto para subirlas porfa !.... ya compadres cuidence y saludos a todos los que visitan y postean y arriba el tuning los andino!!!

PD: aportes a negro_kako@hotmail.com si quieren agregan a msn


-----------------------6------------------
----------------5-------/-----------------
-----------------------/-----7------------
------------4---------/-------------------
---------------------/----------8---------
---------3----------O--------------------
---------------------------------9--------
---------2--------------------------------
--------------------------------10-------
----------1-------------------------------
------------------------------------------
-------------------RPM-------------------

-----------------------120---------------------
---------------100-------------//140-----------
------------------------------//---------------
-----------80----------------//----160---------
----------------------------//-----------------
---------60----------------//--------180-------
--------------------------//------------------
---------40--------------//-----------200-----
------------------------0/--------------------
----------20------------------------220-------
----------------------------------------------
------------------------k/h-------------------

Los andes tuning!!!

adios!!


NegRo.KaKo.MaRCo

por siaca este es mi log http://www.fotolog.com/negro_kako

tuning__losandes
ahahaha wolas!!! bueno aka subiendo una foto de ayer del tuning audio que hubo en la filan estubo bueno habian autos filetes el que mas me llamo la atencion que estaba estandar por fuera pero por dentro estala la zorra xD! un hyundai tucson muy filete el audio de ese jeep y por fuera estaba standart... bueno aca sale el logo del auto del Cristian "pericles" q lo tiene la raja su civic = q el audio bueno se vienen distintas fotos q tome ayap!!... saludos a todos!


PD: aportes a negro_kako@hotmail.com si quieren agregan a msn


-----------------------6------------------
----------------5-------/-----------------
-----------------------/-----7------------
------------4---------/-------------------
---------------------/----------8---------
---------3----------O--------------------
---------------------------------9--------
---------2--------------------------------
--------------------------------10-------
----------1-------------------------------
------------------------------------------
-------------------RPM-------------------

-----------------------120---------------------
---------------100-------------//140-----------
------------------------------//---------------
-----------80----------------//----160---------
----------------------------//-----------------
---------60----------------//--------180-------
--------------------------//------------------
---------40--------------//-----------200-----
------------------------0/--------------------
----------20------------------------220-------
----------------------------------------------
------------------------k/h-------------------

Los andes tuning!!!

adios!!


NegRo.KaKo.MaRCo
© 2014 - Fotowho.net